  0
SECTION
  2
HEADER
  9
$ACADVER
  1
AC1015
  9
$ACADMAINTVER
 70
     6
  9
$DWGCODEPAGE
  3
ANSI_1254
  9
$INSBASE
 10
0.0
 20
0.0
 30
0.0
  9
$EXTMIN
 10
0.0
 20
0.0
 30
0.0
  9
$EXTMAX
 10
279.4
 20
215.9
 30
0.0
  9
$LIMMIN
 10
0.0
 20
0.0
  9
$LIMMAX
 10
279.4
 20
215.9
  9
$ORTHOMODE
 70
     0
  9
$REGENMODE
 70
     1
  9
$FILLMODE
 70
     1
  9
$QTEXTMODE
 70
     0
  9
$MIRRTEXT
 70
     1
  9
$LTSCALE
 40
1.0
  9
$ATTMODE
 70
     1
  9
$TEXTSIZE
 40
3.5
  9
$TRACEWID
 40
1.0
  9
$TEXTSTYLE
  7
Standard
  9
$CLAYER
  8
0
  9
$CELTYPE
  6
ByLayer
  9
$CECOLOR
 62
   256
  9
$CELTSCALE
 40
1.0
  9
$DISPSILH
 70
     0
  9
$DIMSCALE
 40
1.0
  9
$DIMASZ
 40
3.5
  9
$DIMEXO
 40
1.0
  9
$DIMDLI
 40
3.75
  9
$DIMRND
 40
0.0
  9
$DIMDLE
 40
0.0
  9
$DIMEXE
 40
1.0
  9
$DIMTP
 40
0.0
  9
$DIMTM
 40
0.0
  9
$DIMTXT
 40
3.5
  9
$DIMCEN
 40
2.5
  9
$DIMTSZ
 40
0.0
  9
$DIMTOL
 70
     0
  9
$DIMLIM
 70
     0
  9
$DIMTIH
 70
     1
  9
$DIMTOH
 70
     1
  9
$DIMSE1
 70
     0
  9
$DIMSE2
 70
     0
  9
$DIMTAD
 70
     1
  9
$DIMZIN
 70
     0
  9
$DIMBLK
  1

  9
$DIMASO
 70
     1
  9
$DIMSHO
 70
     1
  9
$DIMPOST
  1

  9
$DIMAPOST
  1

  9
$DIMALT
 70
     0
  9
$DIMALTD
 70
     3
  9
$DIMALTF
 40
0.0393700787
  9
$DIMLFAC
 40
1.0
  9
$DIMTOFL
 70
     1
  9
$DIMTVP
 40
0.0
  9
$DIMTIX
 70
     0
  9
$DIMSOXD
 70
     0
  9
$DIMSAH
 70
     0
  9
$DIMBLK1
  1

  9
$DIMBLK2
  1

  9
$DIMSTYLE
  2
ISO-25
  9
$DIMCLRD
 70
     0
  9
$DIMCLRE
 70
     0
  9
$DIMCLRT
 70
     0
  9
$DIMTFAC
 40
1.0
  9
$DIMGAP
 40
1.524
  9
$DIMJUST
 70
     0
  9
$DIMSD1
 70
     0
  9
$DIMSD2
 70
     0
  9
$DIMTOLJ
 70
     0
  9
$DIMTZIN
 70
     0
  9
$DIMALTZ
 70
     0
  9
$DIMALTTZ
 70
     0
  9
$DIMUPT
 70
     0
  9
$DIMDEC
 70
     2
  9
$DIMTDEC
 70
     2
  9
$DIMALTU
 70
     2
  9
$DIMALTTD
 70
     3
  9
$DIMTXSTY
  7
Standard
  9
$DIMAUNIT
 70
     0
  9
$DIMADEC
 70
     2
  9
$DIMALTRND
 40
0.0
  9
$DIMAZIN
 70
     0
  9
$DIMDSEP
 70
    44
  9
$DIMATFIT
 70
     3
  9
$DIMFRAC
 70
     0
  9
$DIMLDRBLK
  1

  9
$DIMLUNIT
 70
     2
  9
$DIMLWD
 70
    -2
  9
$DIMLWE
 70
    -2
  9
$DIMTMOVE
 70
     0
  9
$LUNITS
 70
     2
  9
$LUPREC
 70
     2
  9
$SKETCHINC
 40
1.0
  9
$FILLETRAD
 40
10.0
  9
$AUNITS
 70
     0
  9
$AUPREC
 70
     2
  9
$MENU
  1
.
  9
$ELEVATION
 40
0.0
  9
$PELEVATION
 40
0.0
  9
$THICKNESS
 40
0.0
  9
$LIMCHECK
 70
     0
  9
$CHAMFERA
 40
0.0
  9
$CHAMFERB
 40
0.0
  9
$CHAMFERC
 40
0.0
  9
$CHAMFERD
 40
0.0
  9
$SKPOLY
 70
     0
  9
$TDCREATE
 40
2458985.690690313
  9
$TDUCREATE
 40
2458985.565690313
  9
$TDUPDATE
 40
2458985.690690648
  9
$TDUUPDATE
 40
2458985.565690648
  9
$TDINDWG
 40
0.0000000116
  9
$TDUSRTIMER
 40
0.0000000116
  9
$USRTIMER
 70
     1
  9
$ANGBASE
 50
0.0
  9
$ANGDIR
 70
     0
  9
$PDMODE
 70
     0
  9
$PDSIZE
 40
-1.0
  9
$PLINEWID
 40
0.0
  9
$SPLFRAME
 70
     0
  9
$SPLINETYPE
 70
     6
  9
$SPLINESEGS
 70
     8
  9
$HANDSEED
  5
CB
  9
$SURFTAB1
 70
     6
  9
$SURFTAB2
 70
     6
  9
$SURFTYPE
 70
     6
  9
$SURFU
 70
     6
  9
$SURFV
 70
     6
  9
$UCSBASE
  2

  9
$UCSNAME
  2

  9
$UCSORG
 10
0.0
 20
0.0
 30
0.0
  9
$UCSXDIR
 10
1.0
 20
0.0
 30
0.0
  9
$UCSYDIR
 10
0.0
 20
1.0
 30
0.0
  9
$UCSORTHOREF
  2

  9
$UCSORTHOVIEW
 70
     0
  9
$UCSORGTOP
 10
0.0
 20
0.0
 30
0.0
  9
$UCSORGBOTTOM
 10
0.0
 20
0.0
 30
0.0
  9
$UCSORGLEFT
 10
0.0
 20
0.0
 30
0.0
  9
$UCSORGRIGHT
 10
0.0
 20
0.0
 30
0.0
  9
$UCSORGFRONT
 10
0.0
 20
0.0
 30
0.0
  9
$UCSORGBACK
 10
0.0
 20
0.0
 30
0.0
  9
$PUCSBASE
  2

  9
$PUCSNAME
  2

  9
$PUCSORG
 10
0.0
 20
0.0
 30
0.0
  9
$PUCSXDIR
 10
1.0
 20
0.0
 30
0.0
  9
$PUCSYDIR
 10
0.0
 20
1.0
 30
0.0
  9
$PUCSORTHOREF
  2

  9
$PUCSORTHOVIEW
 70
     0
  9
$PUCSORGTOP
 10
0.0
 20
0.0
 30
0.0
  9
$PUCSORGBOTTOM
 10
0.0
 20
0.0
 30
0.0
  9
$PUCSORGLEFT
 10
0.0
 20
0.0
 30
0.0
  9
$PUCSORGRIGHT
 10
0.0
 20
0.0
 30
0.0
  9
$PUCSORGFRONT
 10
0.0
 20
0.0
 30
0.0
  9
$PUCSORGBACK
 10
0.0
 20
0.0
 30
0.0
  9
$USERI1
 70
     0
  9
$USERI2
 70
     0
  9
$USERI3
 70
     0
  9
$USERI4
 70
     0
  9
$USERI5
 70
     0
  9
$USERR1
 40
0.0
  9
$USERR2
 40
0.0
  9
$USERR3
 40
0.0
  9
$USERR4
 40
0.0
  9
$USERR5
 40
0.0
  9
$WORLDVIEW
 70
     1
  9
$SHADEDGE
 70
     3
  9
$SHADEDIF
 70
    70
  9
$TILEMODE
 70
     1
  9
$MAXACTVP
 70
    64
  9
$PINSBASE
 10
0.0
 20
0.0
 30
0.0
  9
$PLIMCHECK
 70
     0
  9
$PEXTMIN
 10
1.0000000000E+20
 20
1.0000000000E+20
 30
1.0000000000E+20
  9
$PEXTMAX
 10
-1.0000000000E+20
 20
-1.0000000000E+20
 30
-1.0000000000E+20
  9
$PLIMMIN
 10
0.0
 20
0.0
  9
$PLIMMAX
 10
420.0
 20
297.0
  9
$UNITMODE
 70
     0
  9
$VISRETAIN
 70
     1
  9
$PLINEGEN
 70
     0
  9
$PSLTSCALE
 70
     1
  9
$TREEDEPTH
 70
  3020
  9
$CMLSTYLE
  2
Standard
  9
$CMLJUST
 70
     0
  9
$CMLSCALE
 40
20.0
  9
$PROXYGRAPHICS
 70
     1
  9
$MEASUREMENT
 70
     1
  9
$CELWEIGHT
370
    -1
  9
$ENDCAPS
280
     0
  9
$JOINSTYLE
280
     0
  9
$LWDISPLAY
290
     1
  9
$INSUNITS
 70
     4
  9
$HYPERLINKBASE
  1

  9
$STYLESHEET
  1

  9
$XEDIT
290
     1
  9
$CEPSNTYPE
380
     0
  9
$PSTYLEMODE
290
     1
  9
$FINGERPRINTGUID
  2
{4148bd0c-4e14-44c8-a1f0-3debc13cedfb}
  9
$VERSIONGUID
  2
{FAEB1C32-E019-11D5-929B-00C0DF256EC4}
  9
$EXTNAMES
290
     1
  9
$PSVPSCALE
 40
0.0
  9
$OLESTARTUP
290
     0
  0
ENDSEC
  0
SECTION
  2
CLASSES
  0
CLASS
  1
ACDBDICTIONARYWDFLT
  2
AcDbDictionaryWithDefault
  3
ObjectDBX Classes
 90
        0
280
     0
281
     0
  0
CLASS
  1
VISUALSTYLE
  2
AcDbVisualStyle
  3
ObjectDBX Classes
 90
     4095
280
     0
281
     0
  0
CLASS
  1
MATERIAL
  2
AcDbMaterial
  3
ObjectDBX Classes
 90
     1153
280
     0
281
     0
  0
CLASS
  1
SCALE
  2
AcDbScale
  3
ObjectDBX Classes
 90
     1153
280
     0
281
     0
  0
CLASS
  1
TABLESTYLE
  2
AcDbTableStyle
  3
ObjectDBX Classes
 90
     4095
280
     0
281
     0
  0
CLASS
  1
MLEADERSTYLE
  2
AcDbMLeaderStyle
  3
ACDB_MLEADERSTYLE_CLASS
 90
     4095
280
     0
281
     0
  0
CLASS
  1
SUN
  2
AcDbSun
  3
SCENEOE
 90
     1153
280
     0
281
     0
  0
CLASS
  1
ACDBPLACEHOLDER
  2
AcDbPlaceHolder
  3
ObjectDBX Classes
 90
        0
280
     0
281
     0
  0
CLASS
  1
LAYOUT
  2
AcDbLayout
  3
ObjectDBX Classes
 90
        0
280
     0
281
     0
  0
ENDSEC
  0
SECTION
  2
TABLES
  0
TABLE
  2
VPORT
  5
8
330
0
100
AcDbSymbolTable
 70
     1
  0
VPORT
  5
29
330
8
100
AcDbSymbolTableRecord
100
AcDbViewportTableRecord
  2
*Active
 70
     0
 10
0.0
 20
0.0
 11
1.0
 21
1.0
 12
139.7
 22
107.95
 13
0.0
 23
0.0
 14
10.0
 24
10.0
 15
10.0
 25
10.0
 16
0.0
 26
0.0
 36
1.0
 17
0.0
 27
0.0
 37
0.0
 40
215.9
 41
1.2941176471
 42
50.0
 43
0.0
 44
0.0
 50
0.0
 51
0.0
 71
     0
 72
  2000
 73
     1
 74
     3
 75
     0
 76
     0
 77
     0
 78
     0
281
     0
 65
     1
110
0.0
120
0.0
130
0.0
111
1.0
121
0.0
131
0.0
112
0.0
122
1.0
132
0.0
 79
     0
146
0.0
  0
ENDTAB
  0
TABLE
  2
LTYPE
  5
5
330
0
100
AcDbSymbolTable
 70
     6
  0
LTYPE
  5
14
330
5
100
AcDbSymbolTableRecord
100
AcDbLinetypeTableRecord
  2
ByBlock
 70
     0
  3

 72
    65
 73
     0
 40
0.0
  0
LTYPE
  5
15
330
5
100
AcDbSymbolTableRecord
100
AcDbLinetypeTableRecord
  2
ByLayer
 70
     0
  3

 72
    65
 73
     0
 40
0.0
  0
LTYPE
  5
16
330
5
100
AcDbSymbolTableRecord
100
AcDbLinetypeTableRecord
  2
Continuous
 70
     0
  3
Solid line
 72
    65
 73
     0
 40
0.0
  0
LTYPE
  5
6E
330
5
100
AcDbSymbolTableRecord
100
AcDbLinetypeTableRecord
  2
HIDDEN
 70
     0
  3
Hidden __ __ __ __ __ __ __ __ __ __ __ __ __ __
 72
    65
 73
     2
 40
1.905
 49
1.27
 74
     0
 49
-0.635
 74
     0
  0
LTYPE
  5
6F
330
5
100
AcDbSymbolTableRecord
100
AcDbLinetypeTableRecord
  2
PHANTOM
 70
     0
  3
Phantom ______  __  __  ______  __  __  ______
 72
    65
 73
     6
 40
12.7
 49
6.35
 74
     0
 49
-1.27
 74
     0
 49
1.27
 74
     0
 49
-1.27
 74
     0
 49
1.27
 74
     0
 49
-1.27
 74
     0
  0
LTYPE
  5
70
330
5
100
AcDbSymbolTableRecord
100
AcDbLinetypeTableRecord
  2
CENTER
 70
     0
  3
Center ____ _ ____ _ ____ _ ____ _ ____ _ ____
 72
    65
 73
     4
 40
10.16
 49
6.35
 74
     0
 49
-1.27
 74
     0
 49
1.27
 74
     0
 49
-1.27
 74
     0
  0
LTYPE
  5
71
330
5
100
AcDbSymbolTableRecord
100
AcDbLinetypeTableRecord
  2
CENTERX2
 70
     0
  3
Center (2x) ________  __  ________  __  _____
 72
    65
 73
     4
 40
20.32
 49
12.7
 74
     0
 49
-2.54
 74
     0
 49
2.54
 74
     0
 49
-2.54
 74
     0
  0
LTYPE
  5
72
330
5
100
AcDbSymbolTableRecord
100
AcDbLinetypeTableRecord
  2
DOT2
 70
     0
  3
Dot (.5x) ........................................
 72
    65
 73
     2
 40
0.635
 49
0.0
 74
     0
 49
-0.635
 74
     0
  0
ENDTAB
  0
TABLE
  2
LAYER
  5
2
330
0
100
AcDbSymbolTable
 70
    17
  0
LAYER
  5
10
330
2
100
AcDbSymbolTableRecord
100
AcDbLayerTableRecord
  2
0
 70
     0
 62
     7
  6
Continuous
370
    -3
390
F
  0
LAYER
  5
73
330
2
100
AcDbSymbolTableRecord
100
AcDbLayerTableRecord
  2
FORMAT
 70
     0
 62
     7
  6
Continuous
370
    -3
390
F
  0
LAYER
  5
74
330
2
100
AcDbSymbolTableRecord
100
AcDbLayerTableRecord
  2
YARDIMCI_GEOMETRI
 70
     0
 62
    -6
  6
Continuous
290
     0
370
    -3
390
F
  0
LAYER
  5
75
330
2
100
AcDbSymbolTableRecord
100
AcDbLayerTableRecord
  2
SAYFA_CERCEVESI
 70
     0
 62
     7
  6
Continuous
370
    25
390
F
  0
LAYER
  5
76
330
2
100
AcDbSymbolTableRecord
100
AcDbLayerTableRecord
  2
ANTET
 70
     0
 62
     7
  6
Continuous
370
    -3
390
F
  0
LAYER
  5
77
330
2
100
AcDbSymbolTableRecord
100
AcDbLayerTableRecord
  2
OLCU
 70
     0
 62
   150
  6
Continuous
370
    -3
390
F
  0
LAYER
  5
78
330
2
100
AcDbSymbolTableRecord
100
AcDbLayerTableRecord
  2
METIN
 70
     0
 62
    96
  6
Continuous
370
    -3
390
F
  0
LAYER
  5
79
330
2
100
AcDbSymbolTableRecord
100
AcDbLayerTableRecord
  2
BALON
 70
     0
 62
     5
  6
Continuous
370
    -3
390
F
  0
LAYER
  5
7A
330
2
100
AcDbSymbolTableRecord
100
AcDbLayerTableRecord
  2
VURGU
 70
     0
 62
     7
  6
Continuous
370
    -3
390
F
  0
LAYER
  5
7B
330
2
100
AcDbSymbolTableRecord
100
AcDbLayerTableRecord
  2
SILIK
 70
     0
 62
     7
  6
Continuous
370
    -3
390
F
  0
LAYER
  5
7C
330
2
100
AcDbSymbolTableRecord
100
AcDbLayerTableRecord
  2
MODEL
 70
     0
 62
     7
  6
Continuous
370
    -3
390
F
  0
LAYER
  5
7D
330
2
100
AcDbSymbolTableRecord
100
AcDbLayerTableRecord
  2
DETAYLANDıRMA
 70
     0
 62
   190
  6
Continuous
370
    -3
390
F
  0
LAYER
  5
7E
330
2
100
AcDbSymbolTableRecord
100
AcDbLayerTableRecord
  2
TOLERANS
 70
     0
 62
   230
  6
Continuous
370
    -3
390
F
  0
LAYER
  5
7F
330
2
100
AcDbSymbolTableRecord
100
AcDbLayerTableRecord
  2
MERKEZ_CIZGILERI
 70
     0
 62
    30
  6
Continuous
370
    -3
390
F
  0
LAYER
  5
80
330
2
100
AcDbSymbolTableRecord
100
AcDbLayerTableRecord
  2
KESIT-DETAY_CIZGILERI
 70
     0
 62
     7
  6
Continuous
370
    -3
390
F
  0
LAYER
  5
81
330
2
100
AcDbSymbolTableRecord
100
AcDbLayerTableRecord
  2
\U+041E\U+0421\U+0415\U+0412\U+042B\U+0415
 70
     0
 62
     7
  6
Continuous
370
    -3
390
F
  0
LAYER
  5
82
330
2
100
AcDbSymbolTableRecord
100
AcDbLayerTableRecord
  2
\U+0412\U+041E\U+0414\U+042F\U+041D\U+042B\U+0415_\U+0417\U+041D\U+0410\U+041A\U+0418
 70
     0
 62
    11
  6
Continuous
370
    -3
390
F
  0
ENDTAB
  0
TABLE
  2
STYLE
  5
3
330
0
100
AcDbSymbolTable
 70
     1
  0
STYLE
  5
11
330
3
100
AcDbSymbolTableRecord
100
AcDbTextStyleTableRecord
  2
Standard
 70
     0
 40
0.0
 41
1.0
 50
0.0
 71
     0
 42
3.5
  3
txt
  4

  0
ENDTAB
  0
TABLE
  2
VIEW
  5
6
330
0
100
AcDbSymbolTable
 70
     0
  0
ENDTAB
  0
TABLE
  2
UCS
  5
7
330
0
100
AcDbSymbolTable
 70
     0
  0
ENDTAB
  0
TABLE
  2
APPID
  5
9
330
0
100
AcDbSymbolTable
 70
     1
  0
APPID
  5
12
330
9
100
AcDbSymbolTableRecord
100
AcDbRegAppTableRecord
  2
ACAD
 70
     0
  0
ENDTAB
  0
TABLE
  2
DIMSTYLE
  5
A
330
0
100
AcDbSymbolTable
 70
     1
100
AcDbDimStyleTable
  0
DIMSTYLE
105
27
330
A
100
AcDbSymbolTableRecord
100
AcDbDimStyleTableRecord
  2
ISO-25
 70
     0
 41
2.5
 42
0.625
 43
3.75
 44
1.25
 73
     0
 74
     0
 77
     1
 78
     8
140
2.5
141
2.5
143
0.0393700787
147
0.625
171
     3
172
     1
178
     0
271
     2
272
     2
274
     3
278
    44
283
     0
284
     8
340
11
  0
ENDTAB
  0
TABLE
  2
BLOCK_RECORD
  5
1
330
0
100
AcDbSymbolTable
 70
     3
  0
BLOCK_RECORD
  5
1F
330
1
100
AcDbSymbolTableRecord
100
AcDbBlockTableRecord
  2
*Model_Space
340
22
  0
BLOCK_RECORD
  5
1B
330
1
100
AcDbSymbolTableRecord
100
AcDbBlockTableRecord
  2
*Paper_Space
340
1E
  0
BLOCK_RECORD
  5
23
330
1
100
AcDbSymbolTableRecord
100
AcDbBlockTableRecord
  2
*Paper_Space0
340
26
  0
BLOCK_RECORD
  5
88
330
1
100
AcDbSymbolTableRecord
100
AcDbBlockTableRecord
  2
SW_CENTERMARKSYMBOL_0
340
0
102
{BLKREFS
331
93
102
}
  0
BLOCK_RECORD
  5
9C
330
1
100
AcDbSymbolTableRecord
100
AcDbBlockTableRecord
  2
SW_CENTERMARKSYMBOL_1
340
0
102
{BLKREFS
331
A7
102
}
  0
ENDTAB
  0
ENDSEC
  0
SECTION
  2
BLOCKS
  0
BLOCK
  5
20
330
1F
100
AcDbEntity
  8
0
100
AcDbBlockBegin
  2
*Model_Space
 70
     0
 10
0.0
 20
0.0
 30
0.0
  3
*Model_Space
  1

  0
ENDBLK
  5
21
330
1F
100
AcDbEntity
  8
0
100
AcDbBlockEnd
  0
BLOCK
  5
1C
330
1B
100
AcDbEntity
 67
     1
  8
0
100
AcDbBlockBegin
  2
*Paper_Space
 70
     0
 10
0.0
 20
0.0
 30
0.0
  3
*Paper_Space
  1

  0
ENDBLK
  5
1D
330
1B
100
AcDbEntity
 67
     1
  8
0
100
AcDbBlockEnd
  0
BLOCK
  5
24
330
23
100
AcDbEntity
  8
0
100
AcDbBlockBegin
  2
*Paper_Space0
 70
     0
 10
0.0
 20
0.0
 30
0.0
  3
*Paper_Space0
  1

  0
ENDBLK
  5
25
330
23
100
AcDbEntity
  8
0
100
AcDbBlockEnd
  0
BLOCK
  5
89
330
88
100
AcDbEntity
  8
0
100
AcDbBlockBegin
  2
SW_CENTERMARKSYMBOL_0
 70
     0
 10
0.0
 20
0.0
 30
0.0
  3
SW_CENTERMARKSYMBOL_0
  1

  0
LINE
  5
8B
330
88
100
AcDbEntity
  8
FORMAT
 62
     0
100
AcDbLine
 10
0.0
 20
0.0
 30
0.0
 11
2.5
 21
0.0
 31
0.0
  0
LINE
  5
8C
330
88
100
AcDbEntity
  8
FORMAT
 62
     0
100
AcDbLine
 10
0.0
 20
0.0
 30
0.0
 11
0.0
 21
2.5
 31
0.0
  0
LINE
  5
8D
330
88
100
AcDbEntity
  8
FORMAT
 62
     0
100
AcDbLine
 10
0.0
 20
0.0
 30
0.0
 11
-2.5
 21
0.0
 31
0.0
  0
LINE
  5
8E
330
88
100
AcDbEntity
  8
FORMAT
 62
     0
100
AcDbLine
 10
0.0
 20
0.0
 30
0.0
 11
0.0
 21
-2.5
 31
0.0
  0
LINE
  5
8F
330
88
100
AcDbEntity
  8
FORMAT
 62
     0
100
AcDbLine
 10
5.0
 20
0.0
 30
0.0
 11
82.5
 21
0.0
 31
0.0
  0
LINE
  5
90
330
88
100
AcDbEntity
  8
FORMAT
 62
     0
100
AcDbLine
 10
0.0
 20
5.0
 30
0.0
 11
0.0
 21
82.5
 31
0.0
  0
LINE
  5
91
330
88
100
AcDbEntity
  8
FORMAT
 62
     0
100
AcDbLine
 10
-5.0
 20
0.0
 30
0.0
 11
-82.5
 21
0.0
 31
0.0
  0
LINE
  5
92
330
88
100
AcDbEntity
  8
FORMAT
 62
     0
100
AcDbLine
 10
0.0
 20
-5.0
 30
0.0
 11
0.0
 21
-82.5
 31
0.0
  0
ENDBLK
  5
8A
330
88
100
AcDbEntity
  8
0
100
AcDbBlockEnd
  0
BLOCK
  5
9D
330
9C
100
AcDbEntity
  8
0
100
AcDbBlockBegin
  2
SW_CENTERMARKSYMBOL_1
 70
     0
 10
0.0
 20
0.0
 30
0.0
  3
SW_CENTERMARKSYMBOL_1
  1

  0
LINE
  5
9F
330
9C
100
AcDbEntity
  8
FORMAT
 62
     0
100
AcDbLine
 10
0.0
 20
0.0
 30
0.0
 11
0.0
 21
2.5
 31
0.0
  0
LINE
  5
A0
330
9C
100
AcDbEntity
  8
FORMAT
 62
     0
100
AcDbLine
 10
0.0
 20
0.0
 30
0.0
 11
-2.5
 21
0.0
 31
0.0
  0
LINE
  5
A1
330
9C
100
AcDbEntity
  8
FORMAT
 62
     0
100
AcDbLine
 10
0.0
 20
0.0
 30
0.0
 11
0.0
 21
-2.5
 31
0.0
  0
LINE
  5
A2
330
9C
100
AcDbEntity
  8
FORMAT
 62
     0
100
AcDbLine
 10
0.0
 20
0.0
 30
0.0
 11
2.5
 21
0.0
 31
0.0
  0
LINE
  5
A3
330
9C
100
AcDbEntity
  8
FORMAT
 62
     0
100
AcDbLine
 10
0.0
 20
5.0
 30
0.0
 11
0.0
 21
57.5
 31
0.0
  0
LINE
  5
A4
330
9C
100
AcDbEntity
  8
FORMAT
 62
     0
100
AcDbLine
 10
-5.0
 20
0.0
 30
0.0
 11
-57.5
 21
0.0
 31
0.0
  0
LINE
  5
A5
330
9C
100
AcDbEntity
  8
FORMAT
 62
     0
100
AcDbLine
 10
0.0
 20
-5.0
 30
0.0
 11
0.0
 21
-57.5
 31
0.0
  0
LINE
  5
A6
330
9C
100
AcDbEntity
  8
FORMAT
 62
     0
100
AcDbLine
 10
5.0
 20
0.0
 30
0.0
 11
57.5
 21
0.0
 31
0.0
  0
ENDBLK
  5
9E
330
9C
100
AcDbEntity
  8
0
100
AcDbBlockEnd
  0
ENDSEC
  0
SECTION
  2
ENTITIES
  0
LINE
  5
83
330
1F
100
AcDbEntity
  8
0
  6
Continuous
 62
     7
370
    25
100
AcDbLine
 10
83.0792598192
 20
114.4066021064
 30
0.0
 11
83.0792598192
 21
-22.3806187293
 31
0.0
  0
LINE
  5
84
330
1F
100
AcDbEntity
  8
0
  6
Continuous
 62
     7
370
    25
100
AcDbLine
 10
193.0792592231
 20
-22.3806187293
 30
0.0
 11
193.0792592231
 21
114.4513465682
 31
0.0
  0
CIRCLE
  5
85
330
1F
100
AcDbEntity
  8
0
  6
Continuous
 62
     7
370
    25
100
AcDbCircle
 10
138.0792595212
 20
172.6193741182
 30
0.0
 40
70.50000000000003
  0
CIRCLE
  5
86
330
1F
100
AcDbEntity
  8
0
  6
Continuous
 62
     7
370
    25
100
AcDbCircle
 10
138.0792595212
 20
172.6193741182
 30
0.0
 40
80.00000000000001
  0
LINE
  5
87
330
1F
100
AcDbEntity
  8
0
  6
Continuous
 62
     7
370
    25
100
AcDbLine
 10
193.0792592231
 20
-22.3806187293
 30
0.0
 11
83.0792598192
 21
-22.3806187293
 31
0.0
  0
INSERT
  5
93
330
1F
100
AcDbEntity
  8
FORMAT
 62
     7
100
AcDbBlockReference
  2
SW_CENTERMARKSYMBOL_0
 10
138.0792595212
 20
172.6193741182
 30
0.0
  0
LINE
  5
94
330
1F
100
AcDbEntity
  8
0
  6
Continuous
 62
     7
370
    25
100
AcDbLine
 10
218.079257733
 20
397.9026720069
 30
0.0
 11
218.079257733
 21
814.9026677153
 31
0.0
  0
LINE
  5
95
330
1F
100
AcDbEntity
  8
0
  6
Continuous
 62
     7
370
    25
100
AcDbLine
 10
58.0792613093
 20
814.9026677153
 30
0.0
 11
58.0792613093
 21
397.9026720069
 31
0.0
  0
CIRCLE
  5
96
330
1F
100
AcDbEntity
  8
0
  6
Continuous
 62
     7
370
    25
100
AcDbCircle
 10
138.0792595212
 20
606.4026698611
 30
0.0
 40
48.39999999999998
  0
CIRCLE
  5
97
330
1F
100
AcDbEntity
  8
0
  6
Continuous
 62
     7
370
    25
100
AcDbCircle
 10
138.0792595212
 20
606.4026698611
 30
0.0
 40
55.00000000000011
  0
LINE
  5
98
330
1F
100
AcDbEntity
  8
0
  6
Continuous
 62
     7
370
    25
100
AcDbLine
 10
138.0792595212
 20
814.9026677153
 30
0.0
 11
218.079257733
 21
814.9026677153
 31
0.0
  0
LINE
  5
99
330
1F
100
AcDbEntity
  8
0
  6
Continuous
 62
     7
370
    25
100
AcDbLine
 10
58.0792613093
 20
814.9026677153
 30
0.0
 11
138.0792595212
 21
814.9026677153
 31
0.0
  0
LINE
  5
9A
330
1F
100
AcDbEntity
  8
0
  6
Continuous
 62
     7
370
    25
100
AcDbLine
 10
138.0792595212
 20
397.9026720069
 30
0.0
 11
218.079257733
 21
397.9026720069
 31
0.0
  0
LINE
  5
9B
330
1F
100
AcDbEntity
  8
0
  6
Continuous
 62
     7
370
    25
100
AcDbLine
 10
58.0792613093
 20
397.9026720069
 30
0.0
 11
138.0792595212
 21
397.9026720069
 31
0.0
  0
INSERT
  5
A7
330
1F
100
AcDbEntity
  8
FORMAT
100
AcDbBlockReference
  2
SW_CENTERMARKSYMBOL_1
 10
138.0792595212
 20
606.4026698611
 30
0.0
  0
LINE
  5
A8
330
1F
100
AcDbEntity
  8
0
  6
Continuous
 62
     7
370
    25
100
AcDbLine
 10
-127.6421277199
 20
252.61937233
 30
0.0
 11
-544.6421234284
 21
252.61937233
 31
0.0
  0
LINE
  5
A9
330
1F
100
AcDbEntity
  8
0
  6
Continuous
 62
     7
370
    25
100
AcDbLine
 10
-281.1666420076
 20
92.6193759063
 30
0.0
 11
-127.6421277199
 21
92.6193759063
 31
0.0
  0
LINE
  5
AA
330
1F
100
AcDbEntity
  8
0
  6
Continuous
 62
     7
370
    25
100
AcDbLine
 10
-544.6421234284
 20
92.6193759063
 30
0.0
 11
-391.1421252761
 21
92.6193759063
 31
0.0
  0
LINE
  5
AB
330
1F
100
AcDbEntity
  8
0
  6
Continuous
 62
     7
370
    25
100
AcDbLine
 10
-391.1421252761
 20
92.6193759063
 30
0.0
 11
-391.1421252761
 21
-22.3806187293
 31
0.0
  0
LINE
  5
AC
330
1F
100
AcDbEntity
  8
0
  6
Continuous
 62
     7
370
    25
100
AcDbLine
 10
-281.1421258722
 20
-22.3806187293
 30
0.0
 11
-281.1421258722
 21
92.6362365702
 31
0.0
  0
SPLINE
  5
AD
330
1F
100
AcDbEntity
  8
0
  6
Continuous
 62
     7
370
    25
100
AcDbSpline
210
0.0
220
0.0
230
1.0
 70
     8
 71
     3
 72
    39
 73
    35
 74
     0
 42
0.000000001
 43
0.00000001
 40
0.0
 40
0.0
 40
0.0
 40
0.0
 40
0.0047454898243935
 40
0.0278375756114676
 40
0.0509304705023884
 40
0.0931939636328029
 40
0.1365247221674207
 40
0.1821553760729553
 40
0.2287643370382949
 40
0.2554432318568066
 40
0.2821228531243057
 40
0.3094375368989667
 40
0.3367504806759117
 40
0.3833577616026916
 40
0.4072748263274674
 40
0.431186977823783
 40
0.4693757564016324
 40
0.5086431632116738
 40
0.5468497494302661
 40
0.5861192913449901
 40
0.6111444433846405
 40
0.6361747425460924
 40
0.6619102211717071
 40
0.6876485133381621
 40
0.7389541272379574
 40
0.7651878634049917
 40
0.7914202651741846
 40
0.8206223761800786
 40
0.8498203261308457
 40
0.8801484710429521
 40
0.9104705207236637
 40
0.9545489562086844
 40
0.977274791468391
 40
1.0
 40
1.0
 40
1.0
 40
1.0
 10
-281.1666420076204
 20
92.63623657020379
 30
0.0
 10
-281.1590751452337
 20
92.63103005884616
 30
0.0
 10
-281.114687081698
 20
92.60048807920798
 30
0.0
 10
-281.3335971022323
 20
92.75119653612643
 30
0.0
 10
-281.9833459078668
 20
93.19611949141398
 30
0.0
 10
-283.4944875930229
 20
94.22377421616298
 30
0.0
 10
-286.2730611938
 20
96.06936219080197
 30
0.0
 10
-290.0759975070847
 20
98.50242688838918
 30
0.0
 10
-294.1497079571111
 20
100.9636687691969
 30
0.0
 10
-298.00795236892
 20
103.1442848606215
 30
0.0
 10
-301.364781788071
 20
104.9325418625414
 30
0.0
 10
-304.9850525431201
 20
106.7250315027501
 30
0.0
 10
-309.7785574646391
 20
108.8850398618964
 30
0.0
 10
-314.7833580226377
 20
110.8032958653153
 30
0.0
 10
-319.9155982312968
 20
112.3409954928018
 30
0.0
 10
-324.7614049524702
 20
113.4982422618076
 30
0.0
 10
-330.7010603335262
 20
114.4063785252389
 30
0.0
 10
-337.6429873988117
 20
114.6455817976161
 30
0.0
 10
-344.5996418801461
 20
114.0424416796425
 30
0.0
 10
-350.4969128597326
 20
112.8541048710709
 30
0.0
 10
-355.3974023201451
 20
111.4563759853107
 30
0.0
 10
-359.3851895844059
 20
110.0827486327236
 30
0.0
 10
-363.2227262020899
 20
108.5534069595066
 30
0.0
 10
-368.1114195878166
 20
106.3684781615659
 30
0.0
 10
-372.6191334425331
 20
104.0606961448921
 30
0.0
 10
-376.6924148226862
 20
101.786292439856
 30
0.0
 10
-379.6469991987923
 20
100.0527103130507
 30
0.0
 10
-382.4139385172568
 20
98.35921479791864
 30
0.0
 10
-384.9646040986829
 20
96.74081636439347
 30
0.0
 10
-387.1497672673931
 20
95.31483982782409
 30
0.0
 10
-389.1904408207425
 20
93.95249910906054
 30
0.0
 10
-390.4416213794959
 20
93.10003206402727
 30
0.0
 10
-391.053824044373
 20
92.68024830458243
 30
0.0
 10
-391.1126918027816
 20
92.63966651920762
 30
0.0
 10
-391.1421252761198
 20
92.61937590631295
 30
0.0
  0
LINE
  5
AE
330
1F
100
AcDbEntity
  8
0
  6
Continuous
 62
     7
370
    25
100
AcDbLine
 10
-544.6421234284
 20
92.6193759063
 30
0.0
 11
-544.6421234284
 21
252.61937233
 31
0.0
  0
LINE
  5
AF
330
1F
100
AcDbEntity
  8
0
  6
Continuous
 62
     7
370
    25
100
AcDbLine
 10
-127.6421277199
 20
92.6193759063
 30
0.0
 11
-127.6421277199
 21
252.61937233
 31
0.0
  0
LINE
  5
B0
330
1F
100
AcDbEntity
  8
0
  6
Continuous
 62
     7
370
    25
100
AcDbLine
 10
-281.1421258722
 20
-22.3806187293
 30
0.0
 11
-391.1421252761
 21
-22.3806187293
 31
0.0
  0
LINE
  5
B1
330
1F
100
AcDbEntity
  8
0
  6
Continuous
 62
     7
370
    25
100
AcDbLine
 10
648.5563325295
 20
92.6193759063
 30
0.0
 11
802.0563306817
 21
92.6193759063
 31
0.0
  0
LINE
  5
B2
330
1F
100
AcDbEntity
  8
0
  6
Continuous
 62
     7
370
    25
100
AcDbLine
 10
385.0563349733
 20
92.6193759063
 30
0.0
 11
538.5808902392
 21
92.6193759063
 31
0.0
  0
LINE
  5
B3
330
1F
100
AcDbEntity
  8
0
  6
Continuous
 62
     7
370
    25
100
AcDbLine
 10
802.0563306817
 20
252.61937233
 30
0.0
 11
385.0563349733
 21
252.61937233
 31
0.0
  0
LINE
  5
B4
330
1F
100
AcDbEntity
  8
0
  6
Continuous
 62
     7
370
    25
100
AcDbLine
 10
538.5563331255
 20
92.6362440208
 30
0.0
 11
538.5563331255
 21
-22.3806187293
 31
0.0
  0
LINE
  5
B5
330
1F
100
AcDbEntity
  8
0
  6
Continuous
 62
     7
370
    25
100
AcDbLine
 10
648.5563325295
 20
-22.3806187293
 30
0.0
 11
648.5563325295
 21
92.6193759063
 31
0.0
  0
SPLINE
  5
B6
330
1F
100
AcDbEntity
  8
0
  6
Continuous
 62
     7
370
    25
100
AcDbSpline
210
0.0
220
0.0
230
1.0
 70
     8
 71
     3
 72
    38
 73
    34
 74
     0
 42
0.000000001
 43
0.00000001
 40
0.0
 40
0.0
 40
0.0
 40
0.0
 40
0.022504156936436
 40
0.0451875363524411
 40
0.0684237233207954
 40
0.0918430829698252
 40
0.1369529076965633
 40
0.1831842955698361
 40
0.2323472913281695
 40
0.2825617032743071
 40
0.3110937571045742
 40
0.3398186338055811
 40
0.3692032076097504
 40
0.3988543126837494
 40
0.4387344072624361
 40
0.4796674136693581
 40
0.5195956306573227
 40
0.56084264533431
 40
0.5987483560913404
 40
0.6374199166977566
 40
0.6657707833457972
 40
0.6943315942325589
 40
0.723503902483408
 40
0.7528761169944362
 40
0.7814624665363215
 40
0.8102502107196444
 40
0.8397248175994338
 40
0.8694663886316528
 40
0.9141062968833353
 40
0.9369799021544057
 40
0.9600272321293724
 40
0.9822997164152901
 40
1.0
 40
1.0
 40
1.0
 40
1.0
 10
648.5563325294697
 20
92.61937590631295
 30
0.0
 10
648.5277597274909
 20
92.63903403596618
 30
0.0
 10
648.4703865705335
 20
92.67850685207006
 30
0.0
 10
648.0034617364379
 20
92.99885530831456
 30
0.0
 10
647.2506749685301
 20
93.51226674155023
 30
0.0
 10
645.8570967126582
 20
94.45400454057213
 30
0.0
 10
643.4320340750079
 20
96.06588326444728
 30
0.0
 10
639.4768737936569
 20
98.59476357994404
 30
0.0
 10
634.4464220315384
 20
101.6255912252848
 30
0.0
 10
629.2748160425178
 20
104.4712557248196
 30
0.0
 10
624.4784535044987
 20
106.8385903035891
 30
0.0
 10
620.3535620342055
 20
108.6812798768451
 30
0.0
 10
615.9196084165317
 20
110.4181817736253
 30
0.0
 10
610.6438653172853
 20
112.1457221828477
 30
0.0
 10
604.4111422072799
 20
113.6538412030964
 30
0.0
 10
597.2761053623184
 20
114.5568793920012
 30
0.0
 10
589.9370362561507
 20
114.5646141816751
 30
0.0
 10
582.896140812924
 20
113.6838940422161
 30
0.0
 10
576.2389490217469
 20
112.0990441854809
 30
0.0
 10
570.6583954115166
 20
110.2357828334345
 30
0.0
 10
565.8886413889353
 20
108.3087618240878
 30
0.0
 10
561.8395102307652
 20
106.4607263409726
 30
0.0
 10
558.0052026719305
 20
104.5347018563397
 30
0.0
 10
554.4471841040286
 20
102.6059579478923
 30
0.0
 10
551.1932739538183
 20
100.7335536734293
 30
0.0
 10
548.240163592471
 20
98.9517111887717
 30
0.0
 10
545.5856837796134
 20
97.28708045990459
 30
0.0
 10
542.8943668488089
 20
95.5462588382939
 30
0.0
 10
540.9386030496687
 20
94.24103106331916
 30
0.0
 10
539.6546979564514
 20
93.37125384241118
 30
0.0
 10
538.9847578357449
 20
92.91361533783275
 30
0.0
 10
538.6063442851378
 20
92.65377144655996
 30
0.0
 10
538.5887022730469
 20
92.64162848058373
 30
0.0
 10
538.5808902391636
 20
92.63625147136499
 30
0.0
  0
LINE
  5
B7
330
1F
100
AcDbEntity
  8
0
  6
Continuous
 62
     7
370
    25
100
AcDbLine
 10
802.0563306817
 20
252.61937233
 30
0.0
 11
802.0563306817
 21
92.6193759063
 31
0.0
  0
LINE
  5
B8
330
1F
100
AcDbEntity
  8
0
  6
Continuous
 62
     7
370
    25
100
AcDbLine
 10
385.0563349733
 20
252.61937233
 30
0.0
 11
385.0563349733
 21
92.6193759063
 31
0.0
  0
LINE
  5
B9
330
1F
100
AcDbEntity
  8
0
  6
Continuous
 62
     7
370
    25
100
AcDbLine
 10
648.5563325295
 20
-22.3806187293
 30
0.0
 11
538.5563331255
 21
-22.3806187293
 31
0.0
  0
LINE
  5
BA
330
1F
100
AcDbEntity
  8
0
  6
Continuous
 62
     7
370
    25
100
AcDbLine
 10
58.0792613093
 20
-99.478334153
 30
0.0
 11
58.0792613093
 21
-516.4783298615
 31
0.0
  0
LINE
  5
BB
330
1F
100
AcDbEntity
  8
0
  6
Continuous
 62
     7
370
    25
100
AcDbLine
 10
218.079257733
 20
-516.4783298615
 30
0.0
 11
218.079257733
 21
-99.478334153
 31
0.0
  0
LINE
  5
BC
330
1F
100
AcDbEntity
  8
0
  6
Continuous
 62
     7
370
    25
100
AcDbLine
 10
218.079257733
 20
-516.4783298615
 30
0.0
 11
58.0792613093
 21
-516.4783298615
 31
0.0
  0
LINE
  5
BD
330
1F
100
AcDbEntity
  8
0
  6
Continuous
 62
     7
370
    25
100
AcDbLine
 10
218.079257733
 20
-99.478334153
 30
0.0
 11
58.0792613093
 21
-99.478334153
 31
0.0
  0
LINE
  5
BE
330
1F
100
AcDbEntity
  8
0
  6
Continuous
 62
     7
370
    25
100
AcDbLine
 10
762.7868179093
 20
-296.1795255512
 30
0.0
 11
467.9232931891
 21
-125.958435988
 31
0.0
  0
LINE
  5
BF
330
1F
100
AcDbEntity
  8
0
  6
Continuous
 62
     7
370
    25
100
AcDbLine
 10
387.929796974
 20
-264.5262498803
 30
0.0
 11
520.3583085937
 21
-340.9756023681
 31
0.0
  0
LINE
  5
C0
330
1F
100
AcDbEntity
  8
0
  6
Continuous
 62
     7
370
    25
100
AcDbLine
 10
630.358311558
 20
-404.4772524087
 30
0.0
 11
682.7933216942
 21
-434.7473394435
 31
0.0
  0
LINE
  5
C1
330
1F
100
AcDbEntity
  8
0
  6
Continuous
 62
     7
370
    25
100
AcDbLine
 10
520.3583085937
 20
-337.4272703004
 30
0.0
 11
520.3583085937
 21
-439.5783401931
 31
0.0
  0
LINE
  5
C2
330
1F
100
AcDbEntity
  8
0
  6
Continuous
 62
     7
370
    25
100
AcDbLine
 10
630.3583062896
 20
-439.5783401931
 30
0.0
 11
630.3583062896
 21
-337.4338589509
 31
0.0
  0
SPLINE
  5
C3
330
1F
100
AcDbEntity
  8
0
  6
Continuous
 62
     7
370
    25
100
AcDbSpline
210
0.0
220
0.0
230
1.0
 70
     8
 71
     3
 72
    15
 73
    11
 74
     0
 42
0.000000001
 43
0.00000001
 40
0.0
 40
0.0
 40
0.0
 40
0.0
 40
0.0904553437746678
 40
0.1816310713898575
 40
0.275028806136006
 40
0.3691628025358319
 40
0.5504815124434037
 40
0.7363083396855353
 40
0.9339187498365796
 40
1.0
 40
1.0
 40
1.0
 40
1.0
 10
536.4674346871107
 20
-323.2249282530378
 30
0.0
 10
535.5360978682713
 20
-323.7698496699347
 30
0.0
 10
533.6660070900857
 20
-324.8640322427279
 30
0.0
 10
531.1261421078557
 20
-326.4499389240749
 30
0.0
 10
528.7956509792333
 20
-327.9904665477357
 30
0.0
 10
526.0862024508781
 20
-329.9243308226862
 30
0.0
 10
523.3693799045858
 20
-332.1492044563067
 30
0.0
 10
521.2800201295518
 20
-334.5504151119263
 30
0.0
 10
520.3027503112664
 20
-336.2732778002641
 30
0.0
 10
520.4596052063296
 20
-337.194322553692
 30
0.0
 10
520.4989131144662
 20
-337.4251367883568
 30
0.0
  0
SPLINE
  5
C4
330
1F
100
AcDbEntity
  8
0
  6
Continuous
 62
     7
370
    25
100
AcDbSpline
210
0.0
220
0.0
230
1.0
 70
     8
 71
     3
 72
    32
 73
    28
 74
     0
 42
0.000000001
 43
0.00000001
 40
0.0
 40
0.0
 40
0.0
 40
0.0
 40
0.008784412294875
 40
0.0444004854105556
 40
0.0806480617987938
 40
0.1171177316910069
 40
0.1791587276923796
 40
0.210872055396174
 40
0.2428265178715444
 40
0.2936612761310485
 40
0.3459318437428626
 40
0.3967903065340658
 40
0.449063716277376
 40
0.4822502053437561
 40
0.5156948976465673
 40
0.5498495144392419
 40
0.5842139207779876
 40
0.6525090738851973
 40
0.6873301601420468
 40
0.7223491114281622
 40
0.7610595855239458
 40
0.8000882417226616
 40
0.8402339009988898
 40
0.8808230427533376
 40
0.9394977816631037
 40
0.9696283610755314
 40
1.0
 40
1.0
 40
1.0
 40
1.0
 10
630.3248074475854
 20
-337.4334650951751
 30
0.0
 10
630.3348816347409
 20
-337.104401127151
 30
0.0
 10
630.385801239241
 20
-335.4411595327289
 30
0.0
 10
630.1171739367995
 20
-332.3991954603435
 30
0.0
 10
629.4982821731435
 20
-328.3489717600768
 30
0.0
 10
628.2275188216288
 20
-323.4004257398366
 30
0.0
 10
626.3902231957206
 20
-318.811304262451
 30
0.0
 10
624.033241337399
 20
-314.7258629596697
 30
0.0
 10
621.5245657829156
 20
-311.2730244943472
 30
0.0
 10
618.0096523593265
 20
-307.7061760596053
 30
0.0
 10
613.2776790427125
 20
-304.5751706485078
 30
0.0
 10
607.9095735293006
 20
-302.4870698437584
 30
0.0
 10
602.8264170627976
 20
-301.5809743535082
 30
0.0
 10
598.2195609165354
 20
-301.3797999600582
 30
0.0
 10
594.223646464865
 20
-301.5546045381097
 30
0.0
 10
590.1097508063442
 20
-302.0425768179913
 30
0.0
 10
584.5163777001494
 20
-303.0639170982215
 30
0.0
 10
578.7999317984428
 20
-304.5681587499623
 30
0.0
 10
573.024252872276
 20
-306.433920033837
 30
0.0
 10
568.4772602518084
 20
-308.0633552145247
 30
0.0
 10
563.765448476854
 20
-309.9062759105289
 30
0.0
 10
558.8816528689038
 20
-311.9658192568799
 30
0.0
 10
554.0021727821528
 20
-314.1617421532114
 30
0.0
 10
548.4774865994643
 20
-316.7970852530341
 30
0.0
 10
543.6046208680972
 20
-319.2844725817738
 30
0.0
 10
539.4164518618229
 20
-321.5449338036326
 30
0.0
 10
537.4530480143277
 20
-322.6634446058135
 30
0.0
 10
536.4674346871107
 20
-323.2249282530378
 30
0.0
  0
LWPOLYLINE
  5
C5
330
1F
100
AcDbEntity
  8
0
  6
Continuous
 62
     7
370
    25
100
AcDbPolyline
 90
       95
 70
   128
 43
0.0
 10
427.9265450815
 20
-260.5656064249
 10
431.7049069883
 20
-258.2385294907
 10
435.4663936921
 20
-255.6300952927
 10
439.1942060517
 20
-252.7519607212
 10
442.8716937571
 20
-249.6169682419
 10
446.4824327083
 20
-246.2391255611
 10
450.0102977844
 20
-242.6335210308
 10
453.4395313325
 20
-238.8162536928
 10
456.7548156072
 20
-234.8043792924
 10
459.9413465281
 20
-230.6158068626
 10
462.9848942655
 20
-226.2692454971
 10
465.8718585581
 20
-221.7841176628
 10
468.589353007
 20
-217.1804436176
 10
471.1252366856
 20
-212.4787897017
 10
473.4681852627
 20
-207.7001512329
 10
475.6077331489
 20
-202.8658764644
 10
477.5343235462
 20
-197.9975525199
 10
479.2393584977
 20
-193.1169187059
 10
480.715214692
 20
-188.2457813408
 10
481.9553014157
 20
-183.4058936078
 10
482.954086895
 20
-178.6188688641
 10
483.7071035639
 20
-173.9060886255
 10
484.2109902113
 20
-169.288601429
 10
484.4634972491
 20
-164.7870306271
 10
484.4634972491
 20
-160.421479711
 10
484.2109902113
 20
-156.2114473293
 10
483.7071035639
 20
-152.1757352725
 10
482.954086895
 20
-148.3323695738
 10
481.9553014157
 20
-144.6985179985
 10
480.715214692
 20
-141.2904039205
 10
479.2393584977
 20
-138.123253847
 10
477.5343235462
 20
-135.2112114853
 10
475.6077331489
 20
-132.567281466
 10
473.4681852627
 20
-130.2032761057
 10
471.1252366856
 20
-128.1297484841
 10
468.589353007
 20
-126.3559635421
 10
465.8718585581
 20
-124.889841803
 10
462.9848942655
 20
-123.7379319914
 10
459.9413465281
 20
-122.9053760457
 10
456.7548156072
 20
-122.3958939055
 10
453.4395313325
 20
-122.2117652529
 10
450.0102977844
 20
-122.3538066932
 10
446.4824327083
 20
-122.8213884796
 10
442.8716937571
 20
-123.6124162549
 10
439.1942060517
 20
-124.723360703
 10
435.4663936921
 20
-126.1492666678
 10
431.7049069883
 20
-127.8837525764
 10
427.9265450815
 20
-129.9190794434
 10
424.1481831747
 20
-132.2461563776
 10
420.386696471
 20
-134.8545905756
 10
416.6588841113
 20
-137.7327251471
 10
412.9813964059
 20
-140.8677176264
 10
409.3706574548
 20
-144.2455603072
 10
405.8427923786
 20
-147.8511648375
 10
402.4135588306
 20
-151.6684321755
 10
399.0982745558
 20
-155.6803065758
 10
395.9117436349
 20
-159.8688790056
 10
392.8681958976
 20
-164.2154403712
 10
389.981231605
 20
-168.7005682055
 10
387.2637371561
 20
-173.3042422506
 10
384.7278534774
 20
-178.0058961665
 10
382.3849049003
 20
-182.7845346353
 10
380.2453570142
 20
-187.6188094039
 10
378.3187666168
 20
-192.4871333484
 10
376.6137316654
 20
-197.3677671624
 10
375.1378754711
 20
-202.2389045274
 10
373.8977887473
 20
-207.0787922604
 10
372.899003268
 20
-211.8658170042
 10
372.1459865991
 20
-216.5785972428
 10
371.6420999518
 20
-221.1960844392
 10
371.389592914
 20
-225.6976552412
 10
371.389592914
 20
-230.0632061573
 10
371.6420999518
 20
-234.273238539
 10
372.1459865991
 20
-238.3089505958
 10
372.899003268
 20
-242.1523162945
 10
373.8977887473
 20
-245.7861678698
 10
375.1378754711
 20
-249.1942819477
 10
376.6137316654
 20
-252.3614320212
 10
378.3187666168
 20
-255.273474383
 10
380.2453570142
 20
-257.9174044022
 10
382.3849049003
 20
-260.2814097626
 10
384.7278534774
 20
-262.3549373842
 10
387.2637371561
 20
-264.1287223261
 10
389.981231605
 20
-265.5948440653
 10
392.8681958976
 20
-266.7467538769
 10
395.9117436349
 20
-267.5793098226
 10
399.0982745558
 20
-268.0887919628
 10
402.4135588306
 20
-268.2729206154
 10
405.8427923786
 20
-268.130879175
 10
409.3706574548
 20
-267.6632973886
 10
412.9813964059
 20
-266.8722696133
 10
416.6588841113
 20
-265.7613251653
 10
420.386696471
 20
-264.3354192004
 10
424.1481831747
 20
-262.6009332919
 10
427.9265450815
 20
-260.5656064249
  0
LWPOLYLINE
  5
C6
330
1F
100
AcDbEntity
  8
0
  6
Continuous
 62
     7
370
    25
100
AcDbPolyline
 90
       37
 70
   128
 43
0.0
 10
722.7900698017
 20
-430.7866959881
 10
726.5684317085
 20
-428.4596190539
 10
730.3299184123
 20
-425.8511848559
 10
734.0577307719
 20
-422.9730502844
 10
737.7352184773
 20
-419.8380578051
 10
741.3459574285
 20
-416.4602151243
 10
744.8738225046
 20
-412.854610594
 10
748.3030560527
 20
-409.037343256
 10
751.6183403274
 20
-405.0254688557
 10
754.8048712484
 20
-400.8368964258
 10
757.8484189857
 20
-396.4903350603
 10
760.7353832783
 20
-392.005207226
 10
763.4528777272
 20
-387.4015331809
 10
765.9887614059
 20
-382.699879265
 10
768.3317099829
 20
-377.9212407961
 10
770.4712578691
 20
-373.0869660276
 10
772.3978482664
 20
-368.2186420831
 10
774.1028832179
 20
-363.3380082691
 10
775.5787394122
 20
-358.466870904
 10
776.8188261359
 20
-353.626983171
 10
777.8176116152
 20
-348.8399584273
 10
778.5706282841
 20
-344.1271781887
 10
779.0745149315
 20
-339.5096909922
 10
779.3270219693
 20
-335.0081201903
 10
779.3270219693
 20
-330.6425692742
 10
779.0745149315
 20
-326.4325368925
 10
778.5706282841
 20
-322.3968248357
 10
777.8176116152
 20
-318.553459137
 10
776.8188261359
 20
-314.9196075617
 10
775.5787394122
 20
-311.5114934837
 10
774.1028832179
 20
-308.3443434103
 10
772.3978482664
 20
-305.4323010485
 10
770.4712578691
 20
-302.7883710293
 10
768.3317099829
 20
-300.4243656689
 10
765.9887614059
 20
-298.3508380473
 10
763.4528777272
 20
-296.5770531053
 10
762.7868179093
 20
-296.1795255512
  0
LWPOLYLINE
  5
C7
330
1F
100
AcDbEntity
  8
0
  6
Continuous
 62
     7
370
    25
100
AcDbPolyline
 90
       13
 70
   128
 43
0.0
 10
682.7933216942
 20
-434.7473394435
 10
684.8447563252
 20
-435.8159336285
 10
687.7317206178
 20
-436.9678434401
 10
690.7752683551
 20
-437.8003993858
 10
693.961799276
 20
-438.309881526
 10
697.2770835508
 20
-438.4940101786
 10
700.7063170989
 20
-438.3519687382
 10
704.234182175
 20
-437.8843869518
 10
707.8449211261
 20
-437.0933591765
 10
711.5224088316
 20
-435.9824147285
 10
715.2502211912
 20
-434.5565087636
 10
719.011707895
 20
-432.8220228551
 10
722.7900698017
 20
-430.7866959881
  0
LWPOLYLINE
  5
C8
330
1F
100
AcDbEntity
  8
0
  6
Continuous
 62
     7
370
    25
100
AcDbPolyline
 90
       90
 70
   128
 43
0.0
 10
427.9265450815
 20
-252.8084712428
 10
431.4429847397
 20
-250.6350748714
 10
434.9419057969
 20
-248.1857178008
 10
438.4058762506
 20
-245.4726047753
 10
441.8176392714
 20
-242.5092386658
 10
445.1601978255
 20
-239.3103959528
 10
448.416899298
 20
-235.8920048701
 10
451.5715197862
 20
-232.2711028268
 10
454.6083398328
 20
-228.4657227256
 10
457.5122339876
 20
-224.4948260497
 10
460.2687327107
 20
-220.378197165
 10
462.864106666
 20
-216.1363399045
 10
465.2854220395
 20
-211.7903908812
 10
467.52061693
 20
-207.3619993418
 10
469.558556667
 20
-202.8732313537
 10
471.389086494
 20
-198.3464450939
 10
473.003089521
 20
-193.8041935154
 10
474.3925236025
 20
-189.2691057183
 10
475.5504661185
 20
-184.7637789682
 10
476.4711482191
 20
-180.3106539839
 10
477.1499864347
 20
-175.9319168401
 10
477.5835932121
 20
-171.6493852794
 10
477.7698085256
 20
-167.4843940758
 10
477.7077104126
 20
-163.457689521
 10
477.397604438
 20
-159.589334746
 10
476.84103423
 20
-155.8986032572
 10
476.0407814806
 20
-152.4038749433
 10
475.0008185303
 20
-149.1225716215
 10
473.7263347098
 20
-146.0710338447
 10
472.2236836566
 20
-143.2644623414
 10
470.5003411678
 20
-140.7168442467
 10
468.5649025665
 20
-138.440866409
 10
466.4270010416
 20
-136.4478743175
 10
464.0972944775
 20
-134.7477914923
 10
461.5873890626
 20
-133.349087537
 10
458.9097839716
 20
-132.2587370693
 10
456.0778239505
 20
-131.4821649625
 10
453.1056150226
 20
-131.0232432966
 10
450.0079639027
 20
-130.8842563704
 10
446.8003055569
 20
-131.0658999349
 10
443.4986189091
 20
-131.5672690176
 10
440.1193530841
 20
-132.3858639996
 10
436.6793431137
 20
-133.5176058166
 10
433.1957276187
 20
-134.9568530621
 10
429.6858608933
 20
-136.6964466556
 10
426.1672292697
 20
-138.7277094552
 10
422.6573625443
 20
-141.040521725
 10
419.1737470493
 20
-143.6233713174
 10
415.7337370789
 20
-146.463380471
 10
412.354471254
 20
-149.5464027623
 10
409.0527846062
 20
-152.8570799414
 10
405.8451262604
 20
-156.3789198721
 10
402.7474751404
 20
-160.0943786541
 10
399.7752662126
 20
-163.9849397036
 10
396.9433061915
 20
-168.0312232529
 10
394.2657011005
 20
-172.2130707544
 10
391.7557956856
 20
-176.5096498187
 10
389.4260891215
 20
-180.8995545884
 10
387.2881875966
 20
-185.3609152398
 10
385.3527489952
 20
-189.8715029216
 10
383.6294065065
 20
-194.4088499013
 10
382.1267554532
 20
-198.9503453817
 10
380.8522716327
 20
-203.4733708561
 10
379.8123086824
 20
-207.9553898425
 10
379.0120559331
 20
-212.3740703139
 10
378.455485725
 20
-216.7074040867
 10
378.1453797504
 20
-220.9337995989
 10
378.0832816375
 20
-225.0322011088
 10
378.2694969509
 20
-228.9821926879
 10
378.7031037284
 20
-232.7640925195
 10
379.3819419439
 20
-236.3590597427
 10
380.3026240446
 20
-239.7491878002
 10
381.4605665606
 20
-242.9175825786
 10
382.850000642
 20
-245.8484639318
 10
384.464003669
 20
-248.5272272808
 10
386.2945334961
 20
-250.9405287891
 10
388.332473233
 20
-253.076341641
 10
390.5676681235
 20
-254.9240320916
 10
392.9889834971
 20
-256.4743898904
 10
395.5843574524
 20
-257.7196921655
 10
398.3408561754
 20
-258.6537353679
 10
401.2447503302
 20
-259.2718672183
 10
404.2815703769
 20
-259.571009526
 10
407.4361908651
 20
-259.5496642809
 10
410.6928923375
 20
-259.2079478797
 10
414.0354508916
 20
-258.5475546323
 10
417.4472139124
 20
-257.5717830049
 10
420.9111843662
 20
-256.2854808744
 10
424.4101054234
 20
-254.6950696813
 10
427.9265450815
 20
-252.8084712428
  0
LWPOLYLINE
  5
C9
330
1F
100
AcDbEntity
  8
0
  6
Continuous
 62
     7
370
    25
100
AcDbPolyline
 90
       74
 70
   128
 43
0.0
 10
609.5822754656
 20
-459.3354163922
 10
612.3976411529
 20
-457.5638663004
 10
614.9387810046
 20
-455.6591579863
 10
617.1868800747
 20
-453.6353921322
 10
619.1252926631
 20
-451.5075521745
 10
620.7396750117
 20
-449.2913942447
 10
622.0180653182
 20
-447.0033219027
 10
622.9510042493
 20
-444.6602800703
 10
623.5315863071
 20
-442.2796128475
 10
623.7555072449
 20
-439.8789448992
 10
623.6211114817
 20
-437.4760537188
 10
623.1293947369
 20
-435.0887251634
 10
622.2840000785
 20
-432.7346371216
 10
621.0911849967
 20
-430.43121581
 10
619.5597766219
 20
-428.1955186807
 10
617.7011150905
 20
-426.0440952789
 10
615.528966617
 20
-423.9928731923
 10
613.0594066021
 20
-422.0570419094
 10
610.3107180523
 20
-420.2509333508
 10
607.3032569077
 20
-418.5879167526
 10
604.059286253
 20
-417.0803059999
 10
600.6028241945
 20
-415.7392626837
 10
596.9594583142
 20
-414.5747163599
 10
593.1561681929
 20
-413.5952864252
 10
589.2211052911
 20
-412.808228037
 10
585.1834121791
 20
-412.219364254
 10
581.0729736065
 20
-411.8330579032
 10
576.9202248664
 20
-411.6521678603
 10
572.7559134018
 20
-411.6780330827
 10
568.6108709496
 20
-411.9104627254
 10
564.5157817324
 20
-412.3477346199
 10
560.5009677736
 20
-412.9866142826
 10
556.5961531383
 20
-413.8223693619
 10
552.8302446374
 20
-414.8488110758
 10
549.2311276797
 20
-416.0583421142
 10
545.8254466467
 20
-417.4420073907
 10
542.6384175368
 20
-418.9895626638
 10
539.6936343536
 20
-420.6895498103
 10
537.0128995298
 20
-422.5293825534
 10
534.6160612678
 20
-424.4954403651
 10
532.5208650372
 20
-426.5731663591
 10
530.7428231831
 20
-428.7471790615
 10
529.2950960589
 20
-431.0013805685
 10
528.1884041107
 20
-433.3190833332
 10
527.4309449005
 20
-435.6831280181
 10
527.028321325
 20
-438.0760100919
 10
526.9835165909
 20
-440.4800159297
 10
527.2968612874
 20
-442.8773467488
 10
527.9660360208
 20
-445.250252428
 10
528.9860885365
 20
-447.5811630467
 10
530.3494613775
 20
-449.8528265062
 10
532.0460676178
 20
-452.0484191587
 10
534.0633395939
 20
-454.151689512
 10
536.3863464555
 20
-456.1470625857
 10
538.9978878431
 20
-458.019766983
 10
541.8786292194
 20
-459.7559373464
 10
545.0072399984
 20
-461.3427214706
 10
548.3605614746
 20
-462.7683681214
 10
551.9137673434
 20
-464.022322744
 10
555.6405457882
 20
-465.095305207
 10
559.5133064282
 20
-465.9793684439
 10
563.5033815039
 20
-466.6679659335
 10
567.5812234404
 20
-467.1560018816
 10
571.7166458745
 20
-467.4398639162
 10
575.8790264866
 20
-467.5174489389
 10
580.0375559304
 20
-467.388182133
 10
584.1614393477
 20
-467.0530192452
 10
588.220146615
 20
-466.5144450642
 10
592.1836336147
 20
-465.776446049
 10
596.0225477012
 20
-464.8444829565
 10
599.708473996
 20
-463.7254611883
 10
603.2141191218
 20
-462.4276612195
 10
606.5135281934
 20
-460.9606924085
 10
609.5822754656
 20
-459.3354163922
  0
LWPOLYLINE
  5
CA
330
1F
100
AcDbEntity
  8
0
  6
Continuous
 62
     7
370
    25
100
AcDbPolyline
 90
       79
 70
   128
 43
0.0
 10
614.2491801962
 20
-462.0295631466
 10
617.2524839493
 20
-460.1501878174
 10
619.9840893607
 20
-458.1373965107
 10
622.4262786195
 20
-456.0042429219
 10
624.563213401
 20
-453.7645600939
 10
626.3810359533
 20
-451.4328746894
 10
627.8679556953
 20
-449.0243083365
 10
629.0143302185
 20
-446.5544791647
 10
629.8127258724
 20
-444.039409044
 10
630.2579625458
 20
-441.4954064921
 10
630.347155814
 20
-438.9389723925
 10
630.0797235235
 20
-436.3866836628
 10
629.4574029147
 20
-433.8550936501
 10
628.4842282313
 20
-431.3606218815
 10
627.1665109639
 20
-428.9194453361
 10
625.5127990202
 20
-426.5473957989
 10
623.5338141632
 20
-424.2598568349
 10
621.2423940597
 20
-422.0716634243
 10
618.6533981079
 20
-419.9970080606
 10
615.7836160647
 20
-418.0493454229
 10
612.6516610321
 20
-416.2413062677
 10
609.2778448276
 20
-414.5846163578
 10
605.6840469339
 20
-413.0900208082
 10
601.8935740643
 20
-411.7672121392
 10
597.9310110024
 20
-410.6247684989
 10
593.8220554721
 20
-409.6701009145
 10
589.5933554768
 20
-408.909398928
 10
585.272335444
 20
-408.3475971416
 10
580.8870177596
 20
-407.9883391011
 10
576.465844961
 20
-407.833953726
 10
572.037491393
 20
-407.8854439037
 10
567.6306722305
 20
-408.1424735643
 10
563.2739709391
 20
-408.6033775646
 10
558.9956377613
 20
-409.2651654903
 10
554.8234263968
 20
-410.1235459863
 10
550.7843911711
 20
-411.1729526084
 10
546.9047263505
 20
-412.4065787993
 10
543.2095955791
 20
-413.816424649
 10
539.7229609869
 20
-415.3933468873
 10
536.4674346871
 20
-417.1271172396
 10
533.4641309339
 20
-419.0064925688
 10
530.7325255226
 20
-421.0192838755
 10
528.2903362638
 20
-423.1524374643
 10
526.1534014822
 20
-425.3921202923
 10
524.33557893
 20
-427.7238056968
 10
522.848659188
 20
-430.1323720498
 10
521.7022846648
 20
-432.6022012215
 10
520.9038890109
 20
-435.1172713422
 10
520.4586523374
 20
-437.6612738941
 10
520.3694590693
 20
-440.2177079937
 10
520.6368913598
 20
-442.7699967234
 10
521.2592119686
 20
-445.3015867361
 10
522.2323866519
 20
-447.7960585048
 10
523.5501039194
 20
-450.2372350501
 10
525.2038158631
 20
-452.6092845873
 10
527.1828007201
 20
-454.8968235513
 10
529.4742208236
 20
-457.0850169619
 10
532.0632167754
 20
-459.1596723256
 10
534.9329988186
 20
-461.1073349633
 10
538.0649538512
 20
-462.9153741185
 10
541.4387700557
 20
-464.5720640284
 10
545.0325679494
 20
-466.066659578
 10
548.823040819
 20
-467.389468247
 10
552.7856038808
 20
-468.5319118873
 10
556.8945594112
 20
-469.4865794717
 10
561.1232594065
 20
-470.2472814582
 10
565.4442794393
 20
-470.8090832447
 10
569.8295971236
 20
-471.1683412851
 10
574.2507699223
 20
-471.3227266602
 10
578.6791234903
 20
-471.2712364825
 10
583.0859426528
 20
-471.0142068219
 10
587.4426439441
 20
-470.5533028216
 10
591.7209771219
 20
-469.8915148959
 10
595.8931884864
 20
-469.0331344
 10
599.9322237122
 20
-467.9837277778
 10
603.8118885328
 20
-466.7501015869
 10
607.5070193041
 20
-465.3402557372
 10
610.9936538964
 20
-463.7633334989
 10
614.2491801962
 20
-462.0295631466
  0
ENDSEC
  0
SECTION
  2
OBJECTS
  0
DICTIONARY
  5
C
330
0
100
AcDbDictionary
281
     1
  3
ACAD_GROUP
350
D
  3
ACAD_LAYOUT
350
1A
  3
ACAD_MLINESTYLE
350
17
  3
ACAD_PLOTSETTINGS
350
19
  3
ACAD_PLOTSTYLENAME
350
E
  3
ACAD_SCALELIST
350
47
  0
DICTIONARY
  5
D
102
{ACAD_REACTORS
330
C
102
}
330
C
100
AcDbDictionary
281
     1
  0
DICTIONARY
  5
1A
102
{ACAD_REACTORS
330
C
102
}
330
C
100
AcDbDictionary
281
     1
  3
Layout1
350
1E
  3
Layout2
350
26
  3
Model
350
22
  0
DICTIONARY
  5
17
102
{ACAD_REACTORS
330
C
102
}
330
C
100
AcDbDictionary
281
     1
  3
Standard
350
18
  0
DICTIONARY
  5
19
102
{ACAD_REACTORS
330
C
102
}
330
C
100
AcDbDictionary
281
     1
  0
ACDBDICTIONARYWDFLT
  5
E
102
{ACAD_REACTORS
330
C
102
}
330
C
100
AcDbDictionary
281
     1
  3
Normal
350
F
100
AcDbDictionaryWithDefault
340
F
  0
DICTIONARY
  5
47
102
{ACAD_REACTORS
330
C
102
}
330
C
100
AcDbDictionary
281
     1
  3
A0
350
48
  3
A1
350
49
  3
A2
350
4A
  3
A3
350
4B
  3
A4
350
4C
  3
A5
350
4D
  3
A6
350
4E
  3
A7
350
4F
  3
A8
350
50
  3
A9
350
51
  3
B0
350
52
  3
B1
350
53
  3
B2
350
54
  3
B3
350
55
  3
B4
350
56
  3
B5
350
57
  3
B6
350
58
  3
B7
350
59
  3
B8
350
5A
  3
B9
350
5B
  3
C0
350
5C
  3
C1
350
5D
  3
C2
350
5E
  3
C3
350
5F
  3
C4
350
60
  3
C5
350
61
  3
C6
350
62
  3
C7
350
63
  3
C8
350
64
  3
C9
350
65
  3
D0
350
66
  3
D1
350
67
  3
D2
350
68
  0
LAYOUT
  5
1E
102
{ACAD_REACTORS
330
1A
102
}
330
1A
100
AcDbPlotSettings
  1

  2
none_device
  4

  6

 40
0.0
 41
0.0
 42
0.0
 43
0.0
 44
0.0
 45
0.0
 46
0.0
 47
0.0
 48
0.0
 49
0.0
140
0.0
141
0.0
142
1.0
143
1.0
 70
   688
 72
     1
 73
     0
 74
     5
  7

 75
    16
147
1.0
148
0.0
149
0.0
100
AcDbLayout
  1
Layout1
 70
     1
 71
     1
 10
0.0
 20
0.0
 11
420.0
 21
297.0
 12
0.0
 22
0.0
 32
0.0
 14
1.0000000000E+20
 24
1.0000000000E+20
 34
1.0000000000E+20
 15
-1.0000000000E+20
 25
-1.0000000000E+20
 35
-1.0000000000E+20
146
0.0
 13
0.0
 23
0.0
 33
0.0
 16
1.0
 26
0.0
 36
0.0
 17
0.0
 27
1.0
 37
0.0
 76
     0
330
1B
  0
LAYOUT
  5
26
102
{ACAD_REACTORS
330
1A
102
}
330
1A
100
AcDbPlotSettings
  1

  2
none_device
  4

  6

 40
0.0
 41
0.0
 42
0.0
 43
0.0
 44
0.0
 45
0.0
 46
0.0
 47
0.0
 48
0.0
 49
0.0
140
0.0
141
0.0
142
1.0
143
1.0
 70
   688
 72
     1
 73
     0
 74
     5
  7

 75
    16
147
1.0
148
0.0
149
0.0
100
AcDbLayout
  1
Layout2
 70
     1
 71
     2
 10
0.0
 20
0.0
 11
0.0
 21
0.0
 12
0.0
 22
0.0
 32
0.0
 14
0.0
 24
0.0
 34
0.0
 15
0.0
 25
0.0
 35
0.0
146
0.0
 13
0.0
 23
0.0
 33
0.0
 16
1.0
 26
0.0
 36
0.0
 17
0.0
 27
1.0
 37
0.0
 76
     0
330
23
  0
LAYOUT
  5
22
102
{ACAD_REACTORS
330
1A
102
}
330
1A
100
AcDbPlotSettings
  1

  2
none_device
  4
Letter_(8.50_x_11.00_Inches)
  6

 40
6.35
 41
6.35
 42
6.35000508
 43
6.35000508
 44
215.9
 45
279.4
 46
0.0
 47
0.0
 48
0.0
 49
0.0
140
0.0
141
0.0
142
1.0
143
1.0
 70
  1712
 72
     1
 73
     0
 74
     0
  7

 75
     0
147
1.0
148
0.0
149
0.0
100
AcDbLayout
  1
Model
 70
     1
 71
     0
 10
0.0
 20
0.0
 11
279.4
 21
215.9
 12
0.0
 22
0.0
 32
0.0
 14
0.0
 24
0.0
 34
0.0
 15
279.4
 25
215.9
 35
0.0
146
0.0
 13
0.0
 23
0.0
 33
0.0
 16
1.0
 26
0.0
 36
0.0
 17
0.0
 27
1.0
 37
0.0
 76
     0
330
1F
331
29
  0
MLINESTYLE
  5
18
102
{ACAD_REACTORS
330
17
102
}
330
17
100
AcDbMlineStyle
  2
Standard
 70
     0
  3

 62
   256
 51
90.0
 52
90.0
 71
     2
 49
0.5
 62
   256
  6
BYLAYER
 49
-0.5
 62
   256
  6
BYLAYER
  0
ACDBPLACEHOLDER
  5
F
102
{ACAD_REACTORS
330
E
102
}
330
E
  0
SCALE
  5
48
102
{ACAD_REACTORS
330
47
102
}
330
47
100
AcDbScale
 70
     0
300
1:1
140
1.0
141
1.0
290
     1
  0
SCALE
  5
49
102
{ACAD_REACTORS
330
47
102
}
330
47
100
AcDbScale
 70
     0
300
1:2
140
1.0
141
2.0
290
     0
  0
SCALE
  5
4A
102
{ACAD_REACTORS
330
47
102
}
330
47
100
AcDbScale
 70
     0
300
1:4
140
1.0
141
4.0
290
     0
  0
SCALE
  5
4B
102
{ACAD_REACTORS
330
47
102
}
330
47
100
AcDbScale
 70
     0
300
1:5
140
1.0
141
5.0
290
     0
  0
SCALE
  5
4C
102
{ACAD_REACTORS
330
47
102
}
330
47
100
AcDbScale
 70
     0
300
1:8
140
1.0
141
8.0
290
     0
  0
SCALE
  5
4D
102
{ACAD_REACTORS
330
47
102
}
330
47
100
AcDbScale
 70
     0
300
1:10
140
1.0
141
10.0
290
     0
  0
SCALE
  5
4E
102
{ACAD_REACTORS
330
47
102
}
330
47
100
AcDbScale
 70
     0
300
1:16
140
1.0
141
16.0
290
     0
  0
SCALE
  5
4F
102
{ACAD_REACTORS
330
47
102
}
330
47
100
AcDbScale
 70
     0
300
1:20
140
1.0
141
20.0
290
     0
  0
SCALE
  5
50
102
{ACAD_REACTORS
330
47
102
}
330
47
100
AcDbScale
 70
     0
300
1:30
140
1.0
141
30.0
290
     0
  0
SCALE
  5
51
102
{ACAD_REACTORS
330
47
102
}
330
47
100
AcDbScale
 70
     0
300
1:40
140
1.0
141
40.0
290
     0
  0
SCALE
  5
52
102
{ACAD_REACTORS
330
47
102
}
330
47
100
AcDbScale
 70
     0
300
1:50
140
1.0
141
50.0
290
     0
  0
SCALE
  5
53
102
{ACAD_REACTORS
330
47
102
}
330
47
100
AcDbScale
 70
     0
300
1:100
140
1.0
141
100.0
290
     0
  0
SCALE
  5
54
102
{ACAD_REACTORS
330
47
102
}
330
47
100
AcDbScale
 70
     0
300
2:1
140
2.0
141
1.0
290
     0
  0
SCALE
  5
55
102
{ACAD_REACTORS
330
47
102
}
330
47
100
AcDbScale
 70
     0
300
4:1
140
4.0
141
1.0
290
     0
  0
SCALE
  5
56
102
{ACAD_REACTORS
330
47
102
}
330
47
100
AcDbScale
 70
     0
300
8:1
140
8.0
141
1.0
290
     0
  0
SCALE
  5
57
102
{ACAD_REACTORS
330
47
102
}
330
47
100
AcDbScale
 70
     0
300
10:1
140
10.0
141
1.0
290
     0
  0
SCALE
  5
58
102
{ACAD_REACTORS
330
47
102
}
330
47
100
AcDbScale
 70
     0
300
100:1
140
100.0
141
1.0
290
     0
  0
SCALE
  5
59
102
{ACAD_REACTORS
330
47
102
}
330
47
100
AcDbScale
 70
     0
300
1/128" = 1'-0"
140
0.0078125
141
12.0
290
     0
  0
SCALE
  5
5A
102
{ACAD_REACTORS
330
47
102
}
330
47
100
AcDbScale
 70
     0
300
1/64" = 1'-0"
140
0.015625
141
12.0
290
     0
  0
SCALE
  5
5B
102
{ACAD_REACTORS
330
47
102
}
330
47
100
AcDbScale
 70
     0
300
1/32" = 1'-0"
140
0.03125
141
12.0
290
     0
  0
SCALE
  5
5C
102
{ACAD_REACTORS
330
47
102
}
330
47
100
AcDbScale
 70
     0
300
1/16" = 1'-0"
140
0.0625
141
12.0
290
     0
  0
SCALE
  5
5D
102
{ACAD_REACTORS
330
47
102
}
330
47
100
AcDbScale
 70
     0
300
3/32" = 1'-0"
140
0.09375
141
12.0
290
     0
  0
SCALE
  5
5E
102
{ACAD_REACTORS
330
47
102
}
330
47
100
AcDbScale
 70
     0
300
1/8" = 1'-0"
140
0.125
141
12.0
290
     0
  0
SCALE
  5
5F
102
{ACAD_REACTORS
330
47
102
}
330
47
100
AcDbScale
 70
     0
300
3/16" = 1'-0"
140
0.1875
141
12.0
290
     0
  0
SCALE
  5
60
102
{ACAD_REACTORS
330
47
102
}
330
47
100
AcDbScale
 70
     0
300
1/4" = 1'-0"
140
0.25
141
12.0
290
     0
  0
SCALE
  5
61
102
{ACAD_REACTORS
330
47
102
}
330
47
100
AcDbScale
 70
     0
300
3/8" = 1'-0"
140
0.375
141
12.0
290
     0
  0
SCALE
  5
62
102
{ACAD_REACTORS
330
47
102
}
330
47
100
AcDbScale
 70
     0
300
1/2" = 1'-0"
140
0.5
141
12.0
290
     0
  0
SCALE
  5
63
102
{ACAD_REACTORS
330
47
102
}
330
47
100
AcDbScale
 70
     0
300
3/4" = 1'-0"
140
0.75
141
12.0
290
     0
  0
SCALE
  5
64
102
{ACAD_REACTORS
330
47
102
}
330
47
100
AcDbScale
 70
     0
300
1" = 1'-0"
140
1.0
141
12.0
290
     0
  0
SCALE
  5
65
102
{ACAD_REACTORS
330
47
102
}
330
47
100
AcDbScale
 70
     0
300
1-1/2" = 1'-0"
140
1.5
141
12.0
290
     0
  0
SCALE
  5
66
102
{ACAD_REACTORS
330
47
102
}
330
47
100
AcDbScale
 70
     0
300
3" = 1'-0"
140
3.0
141
12.0
290
     0
  0
SCALE
  5
67
102
{ACAD_REACTORS
330
47
102
}
330
47
100
AcDbScale
 70
     0
300
6" = 1'-0"
140
6.0
141
12.0
290
     0
  0
SCALE
  5
68
102
{ACAD_REACTORS
330
47
102
}
330
47
100
AcDbScale
 70
     0
300
1'-0" = 1'-0"
140
12.0
141
12.0
290
     0
  0
ENDSEC
  0
EOF
